Band Bio | Forum | Music | Images | Links | Web Team    
Discopedia | Lyrics | Gigography | Guitar Tabs | Gallery    

 

= Frank Black Tab =
- Back to Main Tab Page -

Download the song directly here (TXT file) :
www.FrankBlack.net/tabs/txt/pist-badharmony.txt


Frank Black and the Catholics
Song: Bad Harmony
Album: Pistolero
Revised by: Derek    Originally tabbed by: Russ
Lead intro tabbed by: stephensolo@hotmail.com


[INTRO]

  F Dm  F Dm   Am  

  G* D  Dm* Am  F C A   G*  D Dm* Am  F C A 
  
  F C7  F Bb

      	
[VERSE]
    G*         D               Dm      Am   
     We don't know what we're talkin' about

                 F        C      A
     That's just words in our libretto 

    G*        D          Dm         Am           F           
     I don't know if the sum of our stretto will end up a 

         C      A
     terrible shout 

 (Repeat VERSE chords over lead)

VERSE 2 (same chords as first verse)

     We left the ground and we floated above this town
     That never got better
     We got drowned in the sea of love and I know that it's gonna
     get wetter

[CHORUS]
     F        C7
     Bad Harmony

                F        Bb
     We're like bad harmony

           C             F      F/E     Dm         C      Bb Bb/A  G7 
     We are couple wannabes who do not know what they are doin'

               F        C7 
     We're like bad harmony 

               F        Bb
     We're like bad harmony

             C        F  F/E   Dm         C     Bb Bb/A  G7
     We are good company going down that road to ruin

     F    Dm
        I hope we will better 

     F    Dm
        I hope we will better


 G*  D  Dm* Am  F C A (C Db)  G*  D  Dm* Am  F C A 
  
 F C  F Bb


VERSE 1

CHORUS

[OUTRO]
     F                     Dm  F
     I hope we will better
                           Dm  F
     I hope we will better
                           Dm  F
     I hope we will better


______________________________________________________________________
The other two leads are just variations on this one.
  LEAD INTRO
E----------------------------------------------------------------------
B-3h-5p-3-----3------3h-5p-3----------8-6---------8-------------3----
G-----------5------------------52-----------7-7s9----7s5s7s5-4b-----
D----------------------------------------------------------------------
A----------------------------------------------------------------------
E----------------------------------------------------------------------

E---------------------------------------------------------------------
B----3--------------86----------8-------------8----------------3-----
G--4b---4b2---7h9-------7---7s9----7s5s7-7s9----9s7s5---2h4s5---4---
D---------------------------------------------------------------------
A---------------------------------------------------------------------
E---------------------------------------------------------------------

E--5---5--------53------------1s--3s--5s--6s--8s--10-----------------
B---------------------5p3p0-------------------------------------------
G-5-5---5--3b---------------0h2s--3s--5s--7s--9s--10-10s-7~~(ring)- 
D----------------------------------------------------------------------
A----------------------------------------------------------------------
E----------------------------------------------------------------------


END LEAD PART:
 E--------------------
 B--------------------
 G--0h2--2b--0--------
 D--------------3-----
 A-------------------- [3x]
 E--------------------

  Chord formations:                   (thing in intro)
E------------1--------------------0-|--5--5--5--5--
B--12---7----1---------3----------1-|--6--5--6--5--
G--12---7----2---------3----2-----3-|--7--7--7--5--
D--12---7----3----2----3----3-----2-|--7--7--7--7--
A--10---5----3----3----1----0-----3-|--5--5--5--7--
E------------1----0-----------------|-----------5--
   G*   D    F   F/E   Bb  Bb/A  C7    Dm*      Am  

- Back to Main Tab Page -

- Suggest a Tab / Correction -
(Sign up to the message board, post it in the appropriate section, thanks!)